Three Houses

the unofficial forum for British punk rock band SHARKS (2007-13) & its successors (THE VIOLENT HEARTS, 2014- & THEIR LONELY BETTERS, 2014-)
 
HomeFAQSearchMemberlistUsergroupsRegisterLog in
Latest topics
» new The Violent Hearts line-up and gig, The Sunflower Lounge, Birmingham, 3/3/17
by museums Tue Jan 10, 2017 9:23 am

» The Computers
by museums Tue Jan 10, 2017 9:19 am

» new music from James Mattock: The Violent Hearts
by Fallen On Deaf Ears Fri Oct 24, 2014 5:00 am

» The Penalty EP - vinyl
by museums Fri Sep 12, 2014 2:07 pm

» Their Lonely Betters
by gloveinhand Thu Aug 14, 2014 11:23 pm

» Starting Out! Looking for Anything and Everything.
by museums Thu May 22, 2014 8:37 am

» The Penalty (lyrics)
by Admin Thu Mar 06, 2014 8:51 am

» Sharks t-shirt on cover of Jennifer Rostock's 'Schlaflos'
by museums Tue Feb 04, 2014 3:57 pm

» Sharks call it a day
by PJayBe Sun Dec 22, 2013 8:53 pm

» Looking to complete my collection...(HELP)
by orwellaintdead Thu Nov 21, 2013 4:29 pm

» looking for..
by orwellaintdead Sat Nov 02, 2013 7:47 pm

» Dream Setlist?
by orwellaintdead Wed Oct 30, 2013 5:07 pm


Share | 
 

 Guitar tabs/chords/covers thread

View previous topic View next topic Go down 
AuthorMessage
CookPassBabtridge
Trains
Trains


Posts : 22
Join date : 2012-01-03

PostSubject: Guitar tabs/chords/covers thread   Wed Mar 07, 2012 9:15 pm

I've noticed there isn't a thread dedicated to the guitar tabs of SHARKS. As much as I'd love to tab music, I can't. The only tabs I know to SHARKS songs are the ones of ultimate guitar, but I'd love to have more. If you do have any tabs, please, feel free to share them in here.


Last edited by CookPassBabtridge on Wed Mar 07, 2012 11:00 pm; edited 1 time in total
Back to top Go down
View user profile
Jagveer ///
It All Relates
It All Relates
avatar

Posts : 124
Join date : 2011-04-27
Location : London, England

PostSubject: Re: Guitar tabs/chords/covers thread   Wed Mar 07, 2012 10:30 pm

How about chords for Three Houses? I can post them here tomorrow if that's of interest to this thread?

I put a cover up on YouTube a while back, deleted my account by accident LOL but again, if that may be of use, I'll re-upload it for us Smile

Let me know...
Back to top Go down
View user profile
CookPassBabtridge
Trains
Trains


Posts : 22
Join date : 2012-01-03

PostSubject: Re: Guitar tabs/chords/covers thread   Wed Mar 07, 2012 10:59 pm

Jagveer /// wrote:
How about chords for Three Houses? I can post them here tomorrow if that's of interest to this thread?

I put a cover up on YouTube a while back, deleted my account by accident LOL but again, if that may be of use, I'll re-upload it for us Smile

Let me know...

Yeah, man, that's exactly what this threads about. That would be sweet if you could do that. I'll probably change the thread title to something more obvious!
Back to top Go down
View user profile
gloveinhand
Site Admin
Site Admin
avatar

Posts : 357
Join date : 2011-02-24
Age : 29

PostSubject: Re: Guitar tabs/chords/covers thread   Thu Mar 08, 2012 12:10 am

I'll post the tabs for sweet harness and it all relates for guitar tomorrow. I can also play bass for most of the songs so I'll tab them too!
Back to top Go down
View user profile http://davidxstanley.tumblr.com
gloveinhand
Site Admin
Site Admin
avatar

Posts : 357
Join date : 2011-02-24
Age : 29

PostSubject: Sweet Harness guitar tab   Thu Mar 08, 2012 10:29 pm

Credit to Matt from Great Leap Forwards podcast for writing this!
Tuning: 1/2 step down

This song is basically a few variations on the same chord progressions.

Intro

eb|--2-0-0-3--0--3--------------------------------3-3-3-----------------------|
Bb|--3-3-3-3--2--3--------------------------------3-3-3-----------------------|
Gb|--2-0-0-0--2--0--------------------------------0-0-0-----------------------|
Db|--0-2-2-0--2--0--------------------------------0-0-2-----------------------|
Ab|----2-0-2--0--2----x 2----after 2nd time add---2-0-2-----------------------|
Eb|----0-2-3-----3--------------------------------3-2-0-----------------------|

Verse

eb|---2-----0--0--3----0--3--0--0--3------------------------------------------|
Bb|---3--2--0--0--3----2--3--0--0--3------------------------------------------|
Gb|---2--2--0--0--0----2--0--0--0--0------------------------------------------|
Db|---0--2--2--2--0----2--0--2--2--0------------------------------------------|
Ab|------0--2--0--2----0--2--2--0--2-----x2-----------------------------------|
Eb|---------0--2--3-------3--0--2--3------------------------------------------|

Chorus (same as intro)

eb|--2-0-0-3--0--3------------------------------------------------------------|
Bb|--3-3-3-3--2--3------------------------------------------------------------|
Gb|--2-0-0-0--2--0------------------------------------------------------------|
Db|--0-2-2-0--2--0------------------------------------------------------------|
Ab|----2-0-2--0--2----x 2----then again x2 whilst Andrew Solos----------------|
Eb|----0-2-3-----3------------------------------------------------------------|

2nd Verse same as before but add the bit below at "Keeping the sun down..."

eb|---0----------3-------------0----------------------------------------------|
Bb|---0----------3-------------2----------------------------------------------|
Gb|---0----------0-------------2----------------------------------------------|
Db|---2-let ring-0-let ring----2----------------------------------------------|
Ab|---2----------2-------------0----------------------------------------------|
Eb|---0----------3------------------------------------------------------------|

Chorus
Then change to verse chords at "Only me, easy Chemistry" play through chord progression twice,
on 3rd time change to...

eb|---2-----0--0--3---0-----3--3--0--3--0-------------------------------------|
Bb|---3--2--0--0--3---2-----3--3--0--3--2-------------------------------------|
Gb|---2--2--0--0--0---2--4--0--0--0--0--2-------------------------------------|
Db|---0--2--2--2--0---2--4--0--0--2--0--2-------------------------------------|
Ab|------0--2--0--2---0--2--2--0--2--2--0-------------------------------------|
Eb|---------0--2--3---------3--2--0--3----------------------------------------|

Outro


eb|---------------3--0---------------------------------------------------------|
Bb|---------------3--2---------------------------------------------------------|
Gb|---7--7--4-2---0--2---------------------------------------------------------|
Db|---7--7--4-2---0--2---------------------------------------------------------|
Ab|---5--4--2-0---2--0--x2-----------------------------------------------------|
Eb|---------------3------------------------------------------------------------|


End with...
eb|----2-----------------------------------------------------------------------|
Bb|----3-----------------------------------------------------------------------|
Gb|----2-----------------------------------------------------------------------|
Db|----0-----------------------------------------------------------------------|
Ab|----------------------------------------------------------------------------|
Eb|----------------------------------------------------------------------------|
Back to top Go down
View user profile http://davidxstanley.tumblr.com
gloveinhand
Site Admin
Site Admin
avatar

Posts : 357
Join date : 2011-02-24
Age : 29

PostSubject: It All Relates guitar tab   Thu Mar 08, 2012 10:32 pm

Credit to Matt from Great Leap Forwards podcast for writing this!
Tuning: 1/2 step down

Intro

eb|----3-3----------------3---------------------------------------------------|
Bb|----3-3--------------0-3---------------------------------------------------|
Gb|----0-0--------------2-0---------------------------------------------------|
Db|----0-0--------------2-0---------------------------------------------------|
Ab|----2-2---x2---then--0-2---------------------------------------------------|
Eb|----3-3----------------3---------------------------------------------------|

Verse, Andrew does stuff that I can't work out.
Rhythm comes back in at 0'22"
These are just the chords. Listen to get the Rhythm, its cool and stabby.

eb|---3--3--3--3--3--3--2-----------------------------------------------------|
Bb|---3--3--3--3--3--3--3-----------------------------------------------------|
Gb|---0--0--0--0--0--0--2-----------------------------------------------------|
Db|---0--2--0--2--0--2--0-----x2----------------------------------------------|
Ab|---2--3--2--3--2--2--------------------------------------------------------|
Eb|---3-----3-----3--0--------------------------------------------------------|

Chorus
"I could do with some daylight"
eb|---3--3--2---3--0--3-------3--3--2--0--0-------------3---------------------|
Bb|---3--3--3---3--0--3-------3--3--3--0--2-------------3---------------------|
Gb|---0--0--2---0--0--0-------0--0--2--0--2-------------0---------------------|
Db|---2--0--0---2--2--0-------2--0--0--2--2-------------2---------------------|
Ab|---3--2------3--2--2-------3--2-----2--0--x2--add on 3---2nd time----------|
Eb|------3---------0--3----------3-----0--------------------------------------|

Break

eb|-----3---0--------0--1--3---------------------------------------------------|
Bb|-----3---0--------2--1--3---------------------------------------------------|
Gb|-----0---0--------2--2--0---------------------------------------------------|
Db|-----0---2--------2--3--0---------------------------------------------------|
Ab|-----2---2---x2---0--3--2---------------------------------------------------|
Eb|-----3---0-----------1--3---------------------------------------------------|

Verse 2 same as Verse 1 with short break in middle after "It All Relates..." just noodle
around on G at that point

Chorus, same as before

Then into the Middle 8

eb|-----3--3--0--0--3----------------------------------------------------------|
Bb|-----3--3--0--2--3----------------------------------------------------------|
Gb|-----0--0--0--2--0----------------------------------------------------------|
Db|-----0--0--2--2--2----------------------------------------------------------|
Ab|-----2--0--2--0--3-x2-------------------------------------------------------|
Eb|-----3--2--0----------------------------------------------------------------|

Vocals return here playing...

eb|-----3--2--3----------------------0--3--------------------------------------|
Bb|-----3--3--3----------------------2--3--------------------------------------|
Gb|-----0--2--0----------------------2--0--------------------------------------|
Db|-----0--0--2----------------------2--2--------------------------------------|
Ab|-----2-----3---x3 on 3rd time add 0--3--------------------------------------|
Eb|-----3----------------------------------------------------------------------|

Outro, (Andrew Soloing)

eb|-----3--2--3-------3--2--0--3--3--2--3-3-3-----------------------------------|
Bb|-----3--3--3-------3--3--0--3--3--3--3-3-3-----------------------------------|
Gb|-----0--2--0-------0--2--0--0--0--2--0-0-0-----------------------------------|
Db|-----0--0--2-------0--0--2--2--0--0--0-0-0-----------------------------------|
Ab|-----2-----3---x2--2-----2--3--2-----2-2-2-----------------------------------|
Eb|-----3-------------3-----0-----3-----3-3-3-----------------------------------|
Stabbed chords to end.
Back to top Go down
View user profile http://davidxstanley.tumblr.com
gloveinhand
Site Admin
Site Admin
avatar

Posts : 357
Join date : 2011-02-24
Age : 29

PostSubject: Fallen On Deaf Ears guitar tab   Thu Mar 08, 2012 10:33 pm

Credit to Matt from Great Leap Forwards podcast for writing this.

Tuning: 1/2 step down

I'm only doing the Rhythm part today.


eb|---------------------------------------------------------------------------|
Bb|---------------------------------------------------------------------------|
Gb|----7----------------------------------------------------------------------|
Db|----7----let ring----------------------------------------------------------|
Ab|----5----------------------------------------------------------------------|
Eb|---------------------------------------------------------------------------|

Verse

eb|---------------------------------------------------------------------------|
Bb|---------------------------------------------------------------------------|
Gb|---7-----------------------------------------------------------------------|
Db|---7---9---5--7------------------------------------------------------------|
Ab|---5---9---5--7---x2-------------------------------------------------------|
Eb|-------7---3--5------------------------------------------------------------|

Pre Chorus

eb|--------------------------------------------------------------------------|
Bb|--------------------------------------------------------------------------|
Gb|---7--9--11---------------------------------------------------------------|
Db|---x--x--x---5------------------------5-----------------------------------|
Ab|---5--7--9---5-let ring---x2 then-----5-----------------------------------|
Eb|-------------3------------------------3-----------------------------------|
PM.....................
Chorus

eb|---------------------------------------------------------------------------|
Bb|---------------------------------------------------------------------------|
Gb|--7---------------7--------------------------------------------------------|
Db|--7-5--9--7--5----7--5--9--7--5--7-----------------------------------------|
Ab|--5-5--9--7--5----5--5--9--7--5--7-----------------------------------------|
Eb|----3--7--5--3-------3--7--5--3--5-----------------------------------------|

Break...

eb|---------------------------------------------------------------------------|
Bb|---------------------------------------------------------------------------|
Gb|---11-11/9--9/7--7/2-------------------------4--2--------------------------|
Db|---x--x-/x--x/x--x/2--x3---On third time add-x--2--------------------------|
Ab|---9--9-/7--7/5--5/0-------------------------2--0--------------------------|
Eb|---------------------------------------------------------------------------|

2nd Verse. Just strum the same Verse chords once each

2nd Chorus just bass, then lead. Rhythm returns in with...

eb|---------------------------------------------------------------------------|
Bb|---------------------------------------------------------------------------|
Gb|---------------------------------------------------------------------------|
Db|---9---7----5----5---------------------------------------------------------|
Ab|---9---7----5----5---------------------------------------------------------|
Eb|---7---5----3----3---------------------------------------------------------|
PM................

Then Chorus chords twice through.
End with...
eb|-------------------------------------------------------------------------------|
Bb|-------------------------------------------------------------------------------|
Gb|-------------------------------------------------------------------------------|
Db|---9---7----5------------------------------------------------------------------|
Ab|---9---7----5------x2----------------------------------------------------------|
Eb|---7---5----3------------------------------------------------------------------|
Back to top Go down
View user profile http://davidxstanley.tumblr.com
Jagveer ///
It All Relates
It All Relates
avatar

Posts : 124
Join date : 2011-04-27
Location : London, England

PostSubject: Re: Guitar tabs/chords/covers thread   Fri Mar 09, 2012 6:28 pm

Chords for “Three Houses”

Lyrics taken from -- http://www.elyrics.net/read/s/sharks-lyrics/three-houses-lyrics.html]

USE THIS VIDEO FOR REFERENCE: http://www.youtube.com/watch?v=3pCvSGTEwTU

Intro = (C) for a long time

(C)Three houses set in stone
I am bored to the fucking bone
of everything I once counted on,
something (Am)I hold (G)close (Fmaj)

(C)Maybe kids reap death from hybrids
of former evenly spread eyelids,

asking cautiously at their pre(Am)dictions (G) (Fmaj)


(C)Travels under(Em)ground make time for (Am)other things,
including (Fmaj)dust settling (C)shackles to be (G)broken free
(C)Travels over (Em)time show my head (Am)other things.
-
Forgetting (Fmaj)dust settling (C)shackles to be (G)broken free, I'd give my (C)days

(C)

(C)And something out of all this mess
clears my congested chest
of any remedial purpose or per(Am)ception (G) (Fmaj)
And (C)maybe ears go deaf from silence,
maybe eyes go blind from staring at the sky too long
(Not as (Am)long as it (G)takes to (Fmaj)show)
But as long as...


Back to top Go down
View user profile
alexshark
Trains
Trains
avatar

Posts : 18
Join date : 2011-06-13
Age : 24
Location : Whitby, UK

PostSubject: Re: Guitar tabs/chords/covers thread   Mon Nov 26, 2012 8:00 pm

I think this thread needs a revamp! On A Clear Day Would be so cool to play along to. I would help but I can't work out chords or tab for shit.
Back to top Go down
View user profile http://facebook.com/alex1hutton
Sponsored content




PostSubject: Re: Guitar tabs/chords/covers thread   

Back to top Go down
 
Guitar tabs/chords/covers thread
View previous topic View next topic Back to top 
Page 1 of 1
 Similar topics
-
» Vocaloid Guitar tabs?
» Dynaco Mark III guitar amp
» The Flat/Satin Black Thread
» A Miyu Thread
» Phantom of the Opera covers

Permissions in this forum:You cannot reply to topics in this forum
Three Houses :: Sharks :: General Discussion about Sharks-
Jump to: